ISO-10303-21;
HEADER;
FILE_DESCRIPTION (( 'STEP AP203' ),
    '1' );
FILE_NAME ('BK7-BSC-12.7-900-1200.STEP',
    '2020-12-22T03:17:21',
    ( '' ),
    ( '' ),
    'SwSTEP 2.0',
    'SolidWorks 2020',
    '' );
FILE_SCHEMA (( 'CONFIG_CONTROL_DESIGN' ));
ENDSEC;

DATA;
#1 = CC_DESIGN_DATE_AND_TIME_ASSIGNMENT ( #21, #280, ( #179 ) ) ;
#2 = LINE ( 'NONE', #205, #19 ) ;
#3 = LOCAL_TIME ( 11, 17, 21.00000000000000000, #120 ) ;
#4 = DIRECTION ( 'NONE',  ( -0.000000000000000000, 0.000000000000000000, 1.000000000000000000 ) ) ;
#5 = FACE_OUTER_BOUND ( 'NONE', #86, .T. ) ;
#6 = DIRECTION ( 'NONE',  ( 0.000000000000000000, 0.000000000000000000, 1.000000000000000000 ) ) ;
#7 = DIRECTION ( 'NONE',  ( 0.7071067811865474617, 0.7071067811865474617, 0.000000000000000000 ) ) ;
#8 = CARTESIAN_POINT ( 'NONE',  ( 6.349999999999996980, 6.349999999999996980, 6.349999999999999645 ) ) ;
#9 = VERTEX_POINT ( 'NONE', #282 ) ;
#10 = ORIENTED_EDGE ( 'NONE', *, *, #284, .F. ) ;
#11 = DESIGN_CONTEXT ( 'detailed design', #253, 'design' ) ;
#12 = EDGE_CURVE ( 'NONE', #45, #112, #158, .T. ) ;
#13 = DIRECTION ( 'NONE',  ( -6.829619984160658046E-17, 1.000000000000000000, -0.000000000000000000 ) ) ;
#14 = ORIENTED_EDGE ( 'NONE', *, *, #67, .T. ) ;
#15 = LINE ( 'NONE', #113, #249 ) ;
#16 = DIRECTION ( 'NONE',  ( 0.000000000000000000, -0.000000000000000000, 1.000000000000000000 ) ) ;
#17 = ORIENTED_EDGE ( 'NONE', *, *, #132, .T. ) ;
#18 = PLANE ( 'NONE',  #171 ) ;
#19 = VECTOR ( 'NONE', #101, 1000.000000000000000 ) ;
#20 = PERSON ( 'UNSPECIFIED', 'UNSPECIFIED', 'UNSPECIFIED', ('UNSPECIFIED'), ('UNSPECIFIED'), ('UNSPECIFIED') ) ;
#21 = DATE_AND_TIME ( #172, #259 ) ;
#22 = AXIS2_PLACEMENT_3D ( 'NONE', #278, #185, #56 ) ;
#23 = PERSON_AND_ORGANIZATION ( #20, #145 ) ;
#24 = APPROVAL_ROLE ( '' ) ;
#25 = AXIS2_PLACEMENT_3D ( 'NONE', #103, #26, #126 ) ;
#26 = DIRECTION ( 'NONE',  ( 1.000000000000000000, -2.220446049250312588E-16, 0.000000000000000000 ) ) ;
#27 = MANIFOLD_SOLID_BREP ( 'Í¹Ì¨-À', #51 ) ;
#28 = DIRECTION ( 'NONE',  ( -0.7071067811865474617, -0.7071067811865474617, 0.000000000000000000 ) ) ;
#29 = CARTESIAN_POINT ( 'NONE',  ( 6.349999999999998757, 6.349999999999998757, 6.349999999999999645 ) ) ;
#30 = MANIFOLD_SOLID_BREP ( '¾µÏ', #198 ) ;
#31 = CC_DESIGN_DATE_AND_TIME_ASSIGNMENT ( #199, #272, ( #313 ) ) ;
#32 = APPROVAL_PERSON_ORGANIZATION ( #123, #232, #24 ) ;
#33 = LINE ( 'NONE', #129, #237 ) ;
#34 = DIRECTION ( 'NONE',  ( 0.000000000000000000, 0.000000000000000000, -1.000000000000000000 ) ) ;
#35 = APPROVAL_STATUS ( 'not_yet_approved' ) ;
#36 = ORIENTED_EDGE ( 'NONE', *, *, #149, .T. ) ;
#37 = PRODUCT ( 'BK7-BSC-12.7-900-1200', 'BK7-BSC-12.7-900-1200', '', ( #201 ) ) ;
#38 = VERTEX_POINT ( 'NONE', #234 ) ;
#39 = VECTOR ( 'NONE', #165, 1000.000000000000000 ) ;
#40 = ORIENTED_EDGE ( 'NONE', *, *, #211, .F. ) ;
#41 = FACE_OUTER_BOUND ( 'NONE', #219, .T. ) ;
#42 = VERTEX_POINT ( 'NONE', #81 ) ;
#43 = CARTESIAN_POINT ( 'NONE',  ( 6.349999999999996980, 6.349999999999996980, -6.349999999999999645 ) ) ;
#44 = CARTESIAN_POINT ( 'NONE',  ( -6.349999999999999645, -6.350000000000000533, 6.349999999999999645 ) ) ;
#45 = VERTEX_POINT ( 'NONE', #160 ) ;
#46 = CARTESIAN_POINT ( 'NONE',  ( 6.349999999999996980, 6.349999999999996980, 6.349999999999999645 ) ) ;
#47 =( LENGTH_UNIT ( ) NAMED_UNIT ( * ) SI_UNIT ( .MILLI., .METRE. ) );
#48 = APPROVAL_PERSON_ORGANIZATION ( #200, #203, #146 ) ;
#49 = CALENDAR_DATE ( 2020, 22, 12 ) ;
#50 = CARTESIAN_POINT ( 'NONE',  ( 0.000000000000000000, 0.000000000000000000, 0.000000000000000000 ) ) ;
#51 = CLOSED_SHELL ( 'NONE', ( #122, #157, #111, #223, #108 ) ) ;
#52 = DIRECTION ( 'NONE',  ( 1.000000000000000000, 0.000000000000000000, 0.000000000000000000 ) ) ;
#53 = DIRECTION ( 'NONE',  ( -0.7071067811865475727, -0.7071067811865475727, 0.000000000000000000 ) ) ;
#54 = FACE_OUTER_BOUND ( 'NONE', #63, .T. ) ;
#55 = LINE ( 'NONE', #181, #224 ) ;
#56 = DIRECTION ( 'NONE',  ( 6.829619984160658046E-17, -1.000000000000000000, 0.000000000000000000 ) ) ;
#57 = DIRECTION ( 'NONE',  ( -2.220446049250312588E-16, 1.000000000000000000, 0.000000000000000000 ) ) ;
#58 = EDGE_CURVE ( 'NONE', #45, #286, #209, .T. ) ;
#59 = VECTOR ( 'NONE', #28, 1000.000000000000114 ) ;
#60 = DIRECTION ( 'NONE',  ( -2.220446049250312588E-16, 1.000000000000000000, 0.000000000000000000 ) ) ;
#61 = DIRECTION ( 'NONE',  ( -0.000000000000000000, -0.000000000000000000, -1.000000000000000000 ) ) ;
#62 = ORIENTED_EDGE ( 'NONE', *, *, #320, .T. ) ;
#63 = EDGE_LOOP ( 'NONE', ( #269, #290, #105, #14 ) ) ;
#64 = CC_DESIGN_PERSON_AND_ORGANIZATION_ASSIGNMENT ( #250, #173, ( #313 ) ) ;
#65 = VECTOR ( 'NONE', #315, 1000.000000000000000 ) ;
#66 = ORIENTED_EDGE ( 'NONE', *, *, #270, .T. ) ;
#67 = EDGE_CURVE ( 'NONE', #291, #9, #235, .T. ) ;
#68 = LINE ( 'NONE', #193, #77 ) ;
#69 = ORIENTED_EDGE ( 'NONE', *, *, #228, .T. ) ;
#70 = CARTESIAN_POINT ( 'NONE',  ( 6.349999999999998757, 6.349999999999998757, 6.349999999999999645 ) ) ;
#71 = VERTEX_POINT ( 'NONE', #260 ) ;
#72 = CC_DESIGN_SECURITY_CLASSIFICATION ( #179, ( #135 ) ) ;
#73 = COORDINATED_UNIVERSAL_TIME_OFFSET ( 8, 0, .AHEAD. ) ;
#74 = DATE_AND_TIME ( #49, #271 ) ;
#75 = APPROVAL_STATUS ( 'not_yet_approved' ) ;
#76 = APPLICATION_PROTOCOL_DEFINITION ( 'international standard', 'config_control_design', 1994, #82 ) ;
#77 = VECTOR ( 'NONE', #87, 1000.000000000000000 ) ;
#78 = CARTESIAN_POINT ( 'NONE',  ( 6.349999999999996980, 6.349999999999996980, -6.349999999999999645 ) ) ;
#79 = PLANE ( 'NONE',  #318 ) ;
#80 = CARTESIAN_POINT ( 'NONE',  ( -6.349999999999998757, -6.349999999999997868, 6.349999999999999645 ) ) ;
#81 = CARTESIAN_POINT ( 'NONE',  ( -6.349999999999999645, -6.350000000000000533, -6.349999999999999645 ) ) ;
#82 = APPLICATION_CONTEXT ( 'configuration controlled 3d designs of mechanical parts and assemblies' ) ;
#83 = CALENDAR_DATE ( 2020, 22, 12 ) ;
#84 = DIRECTION ( 'NONE',  ( -0.000000000000000000, 0.000000000000000000, 1.000000000000000000 ) ) ;
#85 = ORIENTED_EDGE ( 'NONE', *, *, #215, .T. ) ;
#86 = EDGE_LOOP ( 'NONE', ( #166, #162, #107, #88 ) ) ;
#87 = DIRECTION ( 'NONE',  ( 0.000000000000000000, 0.000000000000000000, -1.000000000000000000 ) ) ;
#88 = ORIENTED_EDGE ( 'NONE', *, *, #163, .T. ) ;
#89 = LINE ( 'NONE', #144, #274 ) ;
#90 = CARTESIAN_POINT ( 'NONE',  ( 0.000000000000000000, 0.000000000000000000, 6.349999999999999645 ) ) ;
#91 = ORIENTED_EDGE ( 'NONE', *, *, #284, .T. ) ;
#92 = DIRECTION ( 'NONE',  ( -0.7071067811865475727, 0.7071067811865475727, 0.000000000000000000 ) ) ;
#93 = PERSON_AND_ORGANIZATION ( #20, #145 ) ;
#94 = AXIS2_PLACEMENT_3D ( 'NONE', #197, #194, #292 ) ;
#95 = ADVANCED_FACE ( 'NONE', ( #304 ), #258, .F. ) ;
#96 = DIRECTION ( 'NONE',  ( 1.000000000000000000, 0.000000000000000000, 0.000000000000000000 ) ) ;
#97 = PERSON_AND_ORGANIZATION_ROLE ( 'creator' ) ;
#98 =( NAMED_UNIT ( * ) SI_UNIT ( $, .STERADIAN. ) SOLID_ANGLE_UNIT ( ) );
#99 = CC_DESIGN_PERSON_AND_ORGANIZATION_ASSIGNMENT ( #93, #295, ( #179 ) ) ;
#100 = VECTOR ( 'NONE', #257, 1000.000000000000000 ) ;
#101 = DIRECTION ( 'NONE',  ( -6.829619984160658046E-17, 1.000000000000000000, -0.000000000000000000 ) ) ;
#102 = VECTOR ( 'NONE', #34, 1000.000000000000000 ) ;
#103 = CARTESIAN_POINT ( 'NONE',  ( -6.349999999999998757, -6.349999999999997868, 6.349999999999999645 ) ) ;
#104 = LINE ( 'NONE', #80, #227 ) ;
#105 = ORIENTED_EDGE ( 'NONE', *, *, #297, .F. ) ;
#106 = LINE ( 'NONE', #255, #298 ) ;
#107 = ORIENTED_EDGE ( 'NONE', *, *, #270, .F. ) ;
#108 = ADVANCED_FACE ( 'NONE', ( #130 ), #230, .F. ) ;
#109 = APPROVAL_ROLE ( '' ) ;
#110 = CARTESIAN_POINT ( 'NONE',  ( -6.349999999999998757, -6.349999999999997868, -6.349999999999999645 ) ) ;
#111 = ADVANCED_FACE ( 'NONE', ( #5 ), #206, .F. ) ;
#112 = VERTEX_POINT ( 'NONE', #303 ) ;
#113 = CARTESIAN_POINT ( 'NONE',  ( -6.349999999999999645, -6.350000000000000533, 6.349999999999999645 ) ) ;
#114 = CARTESIAN_POINT ( 'NONE',  ( 6.349999999999998757, 6.349999999999998757, -6.349999999999999645 ) ) ;
#115 = ORIENTED_EDGE ( 'NONE', *, *, #119, .F. ) ;
#116 = EDGE_CURVE ( 'NONE', #38, #45, #182, .T. ) ;
#117 = PLANE ( 'NONE',  #94 ) ;
#118 = APPROVAL_STATUS ( 'not_yet_approved' ) ;
#119 = EDGE_CURVE ( 'NONE', #186, #288, #33, .T. ) ;
#120 = COORDINATED_UNIVERSAL_TIME_OFFSET ( 8, 0, .AHEAD. ) ;
#121 = AXIS2_PLACEMENT_3D ( 'NONE', #131, #6, #57 ) ;
#122 = ADVANCED_FACE ( 'NONE', ( #54 ), #156, .F. ) ;
#123 = PERSON_AND_ORGANIZATION ( #20, #145 ) ;
#124 = CALENDAR_DATE ( 2020, 22, 12 ) ;
#125 = APPROVAL_PERSON_ORGANIZATION ( #151, #299, #109 ) ;
#126 = DIRECTION ( 'NONE',  ( 0.000000000000000000, 0.000000000000000000, 1.000000000000000000 ) ) ;
#127 = DIRECTION ( 'NONE',  ( 1.000000000000000000, -2.903408047666378392E-16, 0.000000000000000000 ) ) ;
#128 = DIRECTION ( 'NONE',  ( 1.000000000000000000, 0.000000000000000000, 0.000000000000000000 ) ) ;
#129 = CARTESIAN_POINT ( 'NONE',  ( -6.349999999999998757, -6.349999999999997868, -6.349999999999999645 ) ) ;
#130 = FACE_OUTER_BOUND ( 'NONE', #169, .T. ) ;
#131 = CARTESIAN_POINT ( 'NONE',  ( 0.000000000000000000, 0.000000000000000000, -6.349999999999999645 ) ) ;
#132 = EDGE_CURVE ( 'NONE', #42, #71, #106, .T. ) ;
#133 = UNCERTAINTY_MEASURE_WITH_UNIT (LENGTH_MEASURE( 1.000000000000000082E-05 ), #47, 'distance_accuracy_value', 'NONE');
#134 = ORIENTED_EDGE ( 'NONE', *, *, #12, .F. ) ;
#135 = PRODUCT_DEFINITION_FORMATION_WITH_SPECIFIED_SOURCE ( 'ANY', '', #37, .NOT_KNOWN. ) ;
#136 = EDGE_LOOP ( 'NONE', ( #261, #239, #312, #188 ) ) ;
#137 = EDGE_CURVE ( 'NONE', #112, #186, #104, .T. ) ;
#138 = CARTESIAN_POINT ( 'NONE',  ( 6.349999999999999645, -6.350000000000000533, 6.349999999999999645 ) ) ;
#139 = ORIENTED_EDGE ( 'NONE', *, *, #137, .F. ) ;
#140 = DIRECTION ( 'NONE',  ( -0.7071067811865474617, -0.7071067811865474617, 0.000000000000000000 ) ) ;
#141 = PRODUCT_DEFINITION_SHAPE ( 'NONE', 'NONE',  #313 ) ;
#142 = CARTESIAN_POINT ( 'NONE',  ( -6.349999999999999645, -6.350000000000000533, 6.349999999999999645 ) ) ;
#143 = ORIENTED_EDGE ( 'NONE', *, *, #119, .T. ) ;
#144 = CARTESIAN_POINT ( 'NONE',  ( 6.349999999999998757, 6.349999999999998757, 6.349999999999999645 ) ) ;
#145 = ORGANIZATION ( 'UNSPECIFIED', 'UNSPECIFIED', '' ) ;
#146 = APPROVAL_ROLE ( '' ) ;
#147 = CALENDAR_DATE ( 2020, 22, 12 ) ;
#148 = VECTOR ( 'NONE', #61, 1000.000000000000000 ) ;
#149 = EDGE_CURVE ( 'NONE', #38, #288, #68, .T. ) ;
#150 = PERSON_AND_ORGANIZATION ( #20, #145 ) ;
#151 = PERSON_AND_ORGANIZATION ( #20, #145 ) ;
#152 = APPLICATION_PROTOCOL_DEFINITION ( 'international standard', 'config_control_design', 1994, #253 ) ;
#153 = FACE_OUTER_BOUND ( 'NONE', #263, .T. ) ;
#154 = ADVANCED_FACE ( 'NONE', ( #41 ), #167, .T. ) ;
#155 = LINE ( 'NONE', #277, #159 ) ;
#156 = PLANE ( 'NONE',  #321 ) ;
#157 = ADVANCED_FACE ( 'NONE', ( #287 ), #243, .F. ) ;
#158 = LINE ( 'NONE', #207, #246 ) ;
#159 = VECTOR ( 'NONE', #52, 1000.000000000000000 ) ;
#160 = CARTESIAN_POINT ( 'NONE',  ( 6.349999999999996980, 6.349999999999996980, 6.349999999999999645 ) ) ;
#161 = ORIENTED_EDGE ( 'NONE', *, *, #137, .T. ) ;
#162 = ORIENTED_EDGE ( 'NONE', *, *, #67, .F. ) ;
#163 = EDGE_CURVE ( 'NONE', #168, #71, #268, .T. ) ;
#164 = LOCAL_TIME ( 11, 17, 21.00000000000000000, #174 ) ;
#165 = DIRECTION ( 'NONE',  ( -0.000000000000000000, -0.000000000000000000, -1.000000000000000000 ) ) ;
#166 = ORIENTED_EDGE ( 'NONE', *, *, #178, .T. ) ;
#167 = PLANE ( 'NONE',  #217 ) ;
#168 = VERTEX_POINT ( 'NONE', #138 ) ;
#169 = EDGE_LOOP ( 'NONE', ( #40, #241, #213 ) ) ;
#170 = DIRECTION ( 'NONE',  ( 0.7071067811865475727, 0.7071067811865475727, 0.000000000000000000 ) ) ;
#171 = AXIS2_PLACEMENT_3D ( 'NONE', #46, #92, #170 ) ;
#172 = CALENDAR_DATE ( 2020, 22, 12 ) ;
#173 = PERSON_AND_ORGANIZATION_ROLE ( 'creator' ) ;
#174 = COORDINATED_UNIVERSAL_TIME_OFFSET ( 8, 0, .AHEAD. ) ;
#175 = AXIS2_PLACEMENT_3D ( 'NONE', #142, #289, #16 ) ;
#176 = DATE_AND_TIME ( #83, #210 ) ;
#177 = PRODUCT_RELATED_PRODUCT_CATEGORY ( 'detail', '', ( #37 ) ) ;
#178 = EDGE_CURVE ( 'NONE', #71, #9, #240, .T. ) ;
#179 = SECURITY_CLASSIFICATION ( '', '', #317 ) ;
#180 = CARTESIAN_POINT ( 'NONE',  ( 0.000000000000000000, 0.000000000000000000, 6.349999999999999645 ) ) ;
#181 = CARTESIAN_POINT ( 'NONE',  ( 6.349999999999996980, 6.349999999999996980, -6.349999999999999645 ) ) ;
#182 = LINE ( 'NONE', #281, #100 ) ;
#183 = DIRECTION ( 'NONE',  ( -0.7071067811865475727, -0.7071067811865475727, 0.000000000000000000 ) ) ;
#184 = ADVANCED_BREP_SHAPE_REPRESENTATION ( 'BK7-BSC-12.7-900-1200', ( #27, #30, #192 ), #293 ) ;
#185 = DIRECTION ( 'NONE',  ( -1.000000000000000000, -6.829619984160658046E-17, 0.000000000000000000 ) ) ;
#186 = VERTEX_POINT ( 'NONE', #110 ) ;
#187 = CC_DESIGN_APPROVAL ( #232, ( #313 ) ) ;
#188 = ORIENTED_EDGE ( 'NONE', *, *, #58, .T. ) ;
#189 = EDGE_LOOP ( 'NONE', ( #85, #143, #69 ) ) ;
#190 = DIRECTION ( 'NONE',  ( 0.000000000000000000, 0.000000000000000000, -1.000000000000000000 ) ) ;
#191 = VERTEX_POINT ( 'NONE', #44 ) ;
#192 = AXIS2_PLACEMENT_3D ( 'NONE', #50, #251, #96 ) ;
#193 = CARTESIAN_POINT ( 'NONE',  ( -6.350000000000002309, 6.350000000000001421, 6.349999999999999645 ) ) ;
#194 = DIRECTION ( 'NONE',  ( -2.903408047666378392E-16, -1.000000000000000000, 0.000000000000000000 ) ) ;
#195 = DIRECTION ( 'NONE',  ( -2.220446049250312588E-16, 1.000000000000000000, 0.000000000000000000 ) ) ;
#196 = ORIENTED_EDGE ( 'NONE', *, *, #58, .F. ) ;
#197 = CARTESIAN_POINT ( 'NONE',  ( 6.349999999999996980, 6.349999999999996980, 6.349999999999999645 ) ) ;
#198 = CLOSED_SHELL ( 'NONE', ( #276, #262, #309, #154, #95 ) ) ;
#199 = DATE_AND_TIME ( #124, #164 ) ;
#200 = PERSON_AND_ORGANIZATION ( #20, #145 ) ;
#201 = MECHANICAL_CONTEXT ( 'NONE', #82, 'mechanical' ) ;
#202 = VECTOR ( 'NONE', #13, 1000.000000000000000 ) ;
#203 = APPROVAL ( #118, 'UNSPECIFIED' ) ;
#204 = FACE_OUTER_BOUND ( 'NONE', #236, .T. ) ;
#205 = CARTESIAN_POINT ( 'NONE',  ( 6.349999999999998757, 6.349999999999998757, 6.349999999999999645 ) ) ;
#206 = PLANE ( 'NONE',  #22 ) ;
#207 = CARTESIAN_POINT ( 'NONE',  ( 6.349999999999996980, 6.349999999999996980, 6.349999999999999645 ) ) ;
#208 = CARTESIAN_POINT ( 'NONE',  ( 0.000000000000000000, 0.000000000000000000, -6.349999999999999645 ) ) ;
#209 = LINE ( 'NONE', #8, #102 ) ;
#210 = LOCAL_TIME ( 11, 17, 21.00000000000000000, #301 ) ;
#211 = EDGE_CURVE ( 'NONE', #9, #42, #214, .T. ) ;
#212 = ORIENTED_EDGE ( 'NONE', *, *, #221, .F. ) ;
#213 = ORIENTED_EDGE ( 'NONE', *, *, #132, .F. ) ;
#214 = LINE ( 'NONE', #311, #59 ) ;
#215 = EDGE_CURVE ( 'NONE', #286, #186, #300, .T. ) ;
#216 = DIRECTION ( 'NONE',  ( -0.000000000000000000, -0.000000000000000000, -1.000000000000000000 ) ) ;
#217 = AXIS2_PLACEMENT_3D ( 'NONE', #90, #218, #195 ) ;
#218 = DIRECTION ( 'NONE',  ( 0.000000000000000000, 0.000000000000000000, 1.000000000000000000 ) ) ;
#219 = EDGE_LOOP ( 'NONE', ( #134, #308, #10 ) ) ;
#220 = CARTESIAN_POINT ( 'NONE',  ( -6.349999999999998757, -6.349999999999997868, 6.349999999999999645 ) ) ;
#221 = EDGE_CURVE ( 'NONE', #191, #168, #155, .T. ) ;
#222 = APPROVAL_DATE_TIME ( #74, #203 ) ;
#223 = ADVANCED_FACE ( 'NONE', ( #254 ), #79, .T. ) ;
#224 = VECTOR ( 'NONE', #127, 1000.000000000000000 ) ;
#225 = SHAPE_DEFINITION_REPRESENTATION ( #141, #184 ) ;
#226 = APPROVAL_DATE_TIME ( #275, #232 ) ;
#227 = VECTOR ( 'NONE', #190, 1000.000000000000000 ) ;
#228 = EDGE_CURVE ( 'NONE', #288, #286, #55, .T. ) ;
#229 = PLANE ( 'NONE',  #25 ) ;
#230 = PLANE ( 'NONE',  #264 ) ;
#231 = EDGE_LOOP ( 'NONE', ( #310, #266, #66 ) ) ;
#232 = APPROVAL ( #75, 'UNSPECIFIED' ) ;
#233 = DIRECTION ( 'NONE',  ( 0.7071067811865475727, -0.7071067811865475727, 0.000000000000000000 ) ) ;
#234 = CARTESIAN_POINT ( 'NONE',  ( -6.350000000000002309, 6.350000000000001421, 6.349999999999999645 ) ) ;
#235 = LINE ( 'NONE', #279, #148 ) ;
#236 = EDGE_LOOP ( 'NONE', ( #314, #196, #306, #161 ) ) ;
#237 = VECTOR ( 'NONE', #60, 1000.000000000000000 ) ;
#238 = CC_DESIGN_PERSON_AND_ORGANIZATION_ASSIGNMENT ( #273, #97, ( #135 ) ) ;
#239 = ORIENTED_EDGE ( 'NONE', *, *, #149, .F. ) ;
#240 = LINE ( 'NONE', #114, #202 ) ;
#241 = ORIENTED_EDGE ( 'NONE', *, *, #178, .F. ) ;
#242 = FACE_OUTER_BOUND ( 'NONE', #136, .T. ) ;
#243 = PLANE ( 'NONE',  #175 ) ;
#244 = EDGE_LOOP ( 'NONE', ( #17, #285, #212, #62 ) ) ;
#245 = CARTESIAN_POINT ( 'NONE',  ( -6.350000000000002309, 6.350000000000001421, -6.349999999999999645 ) ) ;
#246 = VECTOR ( 'NONE', #183, 999.9999999999998863 ) ;
#247 = COORDINATED_UNIVERSAL_TIME_OFFSET ( 8, 0, .AHEAD. ) ;
#248 = PERSON_AND_ORGANIZATION_ROLE ( 'design_supplier' ) ;
#249 = VECTOR ( 'NONE', #216, 1000.000000000000000 ) ;
#250 = PERSON_AND_ORGANIZATION ( #20, #145 ) ;
#251 = DIRECTION ( 'NONE',  ( 0.000000000000000000, 0.000000000000000000, 1.000000000000000000 ) ) ;
#252 = APPROVAL_DATE_TIME ( #176, #299 ) ;
#253 = APPLICATION_CONTEXT ( 'configuration controlled 3d designs of mechanical parts and assemblies' ) ;
#254 = FACE_OUTER_BOUND ( 'NONE', #231, .T. ) ;
#255 = CARTESIAN_POINT ( 'NONE',  ( -6.349999999999999645, -6.350000000000000533, -6.349999999999999645 ) ) ;
#256 = CC_DESIGN_PERSON_AND_ORGANIZATION_ASSIGNMENT ( #150, #248, ( #135 ) ) ;
#257 = DIRECTION ( 'NONE',  ( 1.000000000000000000, -2.903408047666378392E-16, 0.000000000000000000 ) ) ;
#258 = PLANE ( 'NONE',  #121 ) ;
#259 = LOCAL_TIME ( 11, 17, 21.00000000000000000, #73 ) ;
#260 = CARTESIAN_POINT ( 'NONE',  ( 6.349999999999999645, -6.350000000000000533, -6.349999999999999645 ) ) ;
#261 = ORIENTED_EDGE ( 'NONE', *, *, #228, .F. ) ;
#262 = ADVANCED_FACE ( 'NONE', ( #153 ), #229, .F. ) ;
#263 = EDGE_LOOP ( 'NONE', ( #115, #139, #91, #36 ) ) ;
#264 = AXIS2_PLACEMENT_3D ( 'NONE', #208, #84, #305 ) ;
#265 = CARTESIAN_POINT ( 'NONE',  ( 6.349999999999999645, -6.350000000000000533, 6.349999999999999645 ) ) ;
#266 = ORIENTED_EDGE ( 'NONE', *, *, #221, .T. ) ;
#267 = LINE ( 'NONE', #220, #65 ) ;
#268 = LINE ( 'NONE', #265, #39 ) ;
#269 = ORIENTED_EDGE ( 'NONE', *, *, #211, .T. ) ;
#270 = EDGE_CURVE ( 'NONE', #168, #291, #2, .T. ) ;
#271 = LOCAL_TIME ( 11, 17, 21.00000000000000000, #247 ) ;
#272 = DATE_TIME_ROLE ( 'creation_date' ) ;
#273 = PERSON_AND_ORGANIZATION ( #20, #145 ) ;
#274 = VECTOR ( 'NONE', #140, 1000.000000000000114 ) ;
#275 = DATE_AND_TIME ( #147, #3 ) ;
#276 = ADVANCED_FACE ( 'NONE', ( #204 ), #18, .F. ) ;
#277 = CARTESIAN_POINT ( 'NONE',  ( -6.349999999999999645, -6.350000000000000533, 6.349999999999999645 ) ) ;
#278 = CARTESIAN_POINT ( 'NONE',  ( 6.349999999999998757, 6.349999999999998757, 6.349999999999999645 ) ) ;
#279 = CARTESIAN_POINT ( 'NONE',  ( 6.349999999999998757, 6.349999999999998757, 6.349999999999999645 ) ) ;
#280 = DATE_TIME_ROLE ( 'classification_date' ) ;
#281 = CARTESIAN_POINT ( 'NONE',  ( 6.349999999999996980, 6.349999999999996980, 6.349999999999999645 ) ) ;
#282 = CARTESIAN_POINT ( 'NONE',  ( 6.349999999999998757, 6.349999999999998757, -6.349999999999999645 ) ) ;
#283 = VECTOR ( 'NONE', #53, 999.9999999999998863 ) ;
#284 = EDGE_CURVE ( 'NONE', #112, #38, #267, .T. ) ;
#285 = ORIENTED_EDGE ( 'NONE', *, *, #163, .F. ) ;
#286 = VERTEX_POINT ( 'NONE', #43 ) ;
#287 = FACE_OUTER_BOUND ( 'NONE', #244, .T. ) ;
#288 = VERTEX_POINT ( 'NONE', #245 ) ;
#289 = DIRECTION ( 'NONE',  ( 0.000000000000000000, 1.000000000000000000, 0.000000000000000000 ) ) ;
#290 = ORIENTED_EDGE ( 'NONE', *, *, #320, .F. ) ;
#291 = VERTEX_POINT ( 'NONE', #70 ) ;
#292 = DIRECTION ( 'NONE',  ( -1.000000000000000000, 2.903408047666378392E-16, 0.000000000000000000 ) ) ;
#293 =( GEOMETRIC_REPRESENTATION_CONTEXT ( 3 ) GLOBAL_UNCERTAINTY_ASSIGNED_CONTEXT ( ( #133 ) ) GLOBAL_UNIT_ASSIGNED_CONTEXT ( ( #47, #296, #98 ) ) REPRESENTATION_CONTEXT ( 'NONE', 'WORKASPACE' ) );
#294 = CC_DESIGN_APPROVAL ( #203, ( #135 ) ) ;
#295 = PERSON_AND_ORGANIZATION_ROLE ( 'classification_officer' ) ;
#296 =( NAMED_UNIT ( * ) PLANE_ANGLE_UNIT ( ) SI_UNIT ( $, .RADIAN. ) );
#297 = EDGE_CURVE ( 'NONE', #291, #191, #89, .T. ) ;
#298 = VECTOR ( 'NONE', #128, 1000.000000000000000 ) ;
#299 = APPROVAL ( #35, 'UNSPECIFIED' ) ;
#300 = LINE ( 'NONE', #78, #283 ) ;
#301 = COORDINATED_UNIVERSAL_TIME_OFFSET ( 8, 0, .AHEAD. ) ;
#302 = DIRECTION ( 'NONE',  ( 1.000000000000000000, 0.000000000000000000, 0.000000000000000000 ) ) ;
#303 = CARTESIAN_POINT ( 'NONE',  ( -6.349999999999998757, -6.349999999999997868, 6.349999999999999645 ) ) ;
#304 = FACE_OUTER_BOUND ( 'NONE', #189, .T. ) ;
#305 = DIRECTION ( 'NONE',  ( 1.000000000000000000, 0.000000000000000000, 0.000000000000000000 ) ) ;
#306 = ORIENTED_EDGE ( 'NONE', *, *, #12, .T. ) ;
#307 = CC_DESIGN_APPROVAL ( #299, ( #179 ) ) ;
#308 = ORIENTED_EDGE ( 'NONE', *, *, #116, .F. ) ;
#309 = ADVANCED_FACE ( 'NONE', ( #242 ), #117, .F. ) ;
#310 = ORIENTED_EDGE ( 'NONE', *, *, #297, .T. ) ;
#311 = CARTESIAN_POINT ( 'NONE',  ( 6.349999999999998757, 6.349999999999998757, -6.349999999999999645 ) ) ;
#312 = ORIENTED_EDGE ( 'NONE', *, *, #116, .T. ) ;
#313 = PRODUCT_DEFINITION ( 'UNKNOWN', '', #135, #11 ) ;
#314 = ORIENTED_EDGE ( 'NONE', *, *, #215, .F. ) ;
#315 = DIRECTION ( 'NONE',  ( -2.220446049250312588E-16, 1.000000000000000000, 0.000000000000000000 ) ) ;
#316 = CC_DESIGN_PERSON_AND_ORGANIZATION_ASSIGNMENT ( #23, #319, ( #37 ) ) ;
#317 = SECURITY_CLASSIFICATION_LEVEL ( 'unclassified' ) ;
#318 = AXIS2_PLACEMENT_3D ( 'NONE', #180, #4, #302 ) ;
#319 = PERSON_AND_ORGANIZATION_ROLE ( 'design_owner' ) ;
#320 = EDGE_CURVE ( 'NONE', #191, #42, #15, .T. ) ;
#321 = AXIS2_PLACEMENT_3D ( 'NONE', #29, #233, #7 ) ;
ENDSEC;
END-ISO-10303-21;
